0
SECTION
2
HEADER
9
$ACADVER
1
AC1006
9
$INSBASE
10
-14.0166698796814
20
-.39
9
$EXTMIN
10
-14.0166698796814
20
-.39
9
$EXTMAX
10
 17.6690788854695
20
 13.39
0
ENDSEC
0
SECTION
2
TABLES
0
TABLE
2
LTYPE
70
1
0
LTYPE
2
CONTINUOUS
70
0
3
Solid Line
72
65
73
0
40
0.0
0
ENDTAB
0
TABLE
2
LAYER
70
 5
0
LAYER
2
PLASMA
70
0
62
 15
6
CONTINUOUS
0
LAYER
2
OXY
70
0
62
 15
6
CONTINUOUS
0
LAYER
2
MARKER
70
0
62
 13
6
CONTINUOUS
0
ENDTAB
 0 
ENDSEC
0
SECTION
2
BLOCKS
0
ENDSEC
 0 
SECTION
2
ENTITIES
 0 
ARC
 8 
0
 10 
 .875
 20 
 .375000000000003
 40 
 .375
 50 
 191.704581011209
 51 
 270
 0 
LINE
 8 
0
 10 
 2.99042145212057E-02
 20 
 2.60565612953322
 11 
 .507797527290689
 21 
 .298925404791308
 0 
LINE
 8 
0
 10 
 .875
 20 
 2.86734765415001E-15
 11 
 2.125
 21 
 0
 0 
ARC
 8 
0
 10 
 .147409005788186
 20 
 2.63
 40 
 .120000000000001
 50 
 100.762695138922
 51 
 191.704581011211
 0 
LINE
 8 
0
 10 
 2.125
 20 
 0
 11 
 3.625
 21 
 0
 0 
LINE
 8 
0
 10 
 3.625
 20 
 0
 11 
 3.625
 21 
 .38
 0 
LINE
 8 
0
 10 
 .235000000000004
 20 
 2.7478890854133
 11 
 .235
 21 
 13
 0 
LINE
 8 
0
 10 
 2.23500000000004
 20 
 3.11753754857872
 11 
 2.23500000000005
 21 
 12.75
 0 
LINE
 8 
0
 10 
 1.98500000000005
 20 
 13
 11 
 .235
 21 
 13
 0 
ARC
 8 
0
 10 
 1.98500000000005
 20 
 12.75
 40 
 .249999999999999
 50 
 0
 51 
 90
 0 
ARC
 8 
0
 10 
 3.23500000000004
 20 
 3.11753754857872
 40 
 1
 50 
 180
 51 
 209.156917882313
 0 
LINE
 8 
0
 10 
 .125000000000004
 20 
 2.7478890854133
 11 
 .235000000000004
 21 
 2.7478890854133
 0 
LINE
 8 
0
 10 
 3.625
 20 
 .38
 11 
 2.36171133575811
 21 
 2.63033439905427
 0 
ENDSEC
 0 
EOF
